陳奕迅 今天只做一件事 [結他chord譜]


可以用C 代替Cmaj9 (X3243X)
曲:舒文, Joey Tang 詞:周耀輝 Key:Ab 4/4  Arranged by Showroom/Kermit Tam

Capo 1 > Play G

|G   C  |D  G
(發)覺這世(界)永遠(太)少空(間)
|G   C  |D  Em
(因)此花一(天)支配(一)切時(間)
|G   C  |D  G
(發)覺這世(界)永遠(太)晒心(機)
|G   C  |D  Em
(因)此花一(天)思索(一)切道(理)

|C    |D   G
消(失)太快 捉(得)到太(少)
|G   C  |D  G
(因)此花一(天)感覺(一)切是(愛)

  |Cmaj9 |Cmaj9  |G
茫茫人(海) (或)有幾多漂泊(與)淹蓋
  |G  |Cmaj7  |Cmaj7
人人尋(找)愛 (或)有幾多爭鬥(與)比賽
  |Am7    D7
越覺得(剩)低幾多未變(的)愛

|G      |B7
( )慢慢地合作新詩 ( )靜靜地同床午睡
|Em     |Bm
( )再發現歲月換來(幾)次厭悶幾多親愛
|Am   |Bm Em
( )有各樣劫災和(充)滿意(外)
 |Am7     |D7
因此(我)要努力繼續能(戀)愛

|G      |Bm  B7
( )慢慢地邁向聽朝 ( )靜靜地(懷)念昨日
|Em   Em/D |C#m7-5
 ( )再決定(今)天只要(相)信愛
|C     |Bm  Em
 ( )叫皺紋散開 喚(青)春歸(來)
  |G    C  |D   Em
因此我(喜)歡花一(天)感覺(一)切是(愛)

|G C|D G|G C|D G|G C|D G|G C|D|

G   C  D7  G
發覺這世界永遠太少深刻
G   C  D7  Em
因此花一天改變一切習慣
G   C  D7  G
發覺這世界永遠太多蹺蹊
G   C  D7  Em
因此花一天擁有一切運氣

C    Bm Em
消失太快 捉得到太少
G   C  D7  Em
因此花一天感覺一切是愛

C Bm     Em
茫茫人海 或有幾多漂泊與淹蓋
C  Bm     Em
人人尋找愛 或有幾多爭鬥與比賽
Am7    D7
越覺得剩低幾多未變的愛

 G        Bm
慢慢地合唱K歌  靜靜地同遊網上
Em      Bm
再發現歲月換來幾次厭悶幾多親愛
C      Bm
有各樣劫災  和充滿意外
Am7    D7
因此我要努力繼續能戀愛
G        Bm
慢慢地邁向聽朝  靜靜地懷念昨日
Em      Cm
再決定今天只要相信愛
Am7      Bm  Em
叫皺紋散開 喚青春歸來
G   C  D7  Em
因此我喜歡花一天感覺一切是愛

|G C|D G|


G   C  D7  G
喜歡花一天跟你一切是愛

2 則留言:

TSZ KWAN Mak 提到...

我想問可唔可以出一個轉左去Key:c play:c ge譜啊??

L Jack 提到...

-----------------------------------------------------------------------------------
---------1----1---------0-3--------------------1----1--------------------0--------
-----0-2----2---2-0-2------4---------------0-2----2----2--0---0-------0----------
---0-------0----0------------5------------0------0------0----4-------2------------
-----------------------------------------------------------------------------------
--3--------------------------------------3---------------------------0-------------


---------------------------------------------------------------------------------
-----------1-----1---------0--3--------------0-1-----1--------------------0------
-------0-2-----2----2-0-2------4-----------2-------2-----2-0---0-------0-------
----0---------0-----0------------5--------0-------0------0----4-------2---------
----------------------------------------------------------------------------------
--3--------------------------------------3----------------------------0-----------

張貼留言

如你對POLYGON上的歌譜有任何意歡迎留言或登入Facebook到我地Fan page inbox我地