Muse Time is running out [Bass結他譜] +教學


Muse-Time is running out bass tab Arranged By Edan Li

成首歌分6part:1:intro+frist verse,2.second verse  3:brige,4.chorus,5.brige2 6.outro
建議setting: 因為本身條bass line有Fuzz(effect之一),
所以setting自已試試

1.intro+verse
G:-----------------------------------|
D:-----------------------------------|
A:--------------56---7---7----3----5-|
E:-5585-5857757----00-000-0-11-1-33-3| 

第1次:0:00-0:42  第2次: 2:37-3:00

2.second verse
G:----------------------------------|
D:----------------------------------|
A:----3-------------7------3----5---|
E:--55-5---7757---00-0---11-1-33-3--| x3

G:-----------------------------------|
D:-----------------------------------|
A:--------------56---7---7----3----5-|
E:-5585-5857757----00-000-0-11-1-33-3| 

由:1.16-1:47

3.brige
G:----------------------------------------------------------------|
D:----------------------------------------------------------------|
A:--------------------------------------------------------33333333|
E:11111111333333335555555533333333111111113333333355555555--------|

第1次:0:43-0:59 第2次:1:47-2:03 第3次:3:01-3:16

4.chorus
G:----------------------------------------------------------------|
D:----------------------------------------------------------------|
A:--------------------------------------------------------33333333|
E:11111111333333335555555533333333111111113333333355555555--------|

第1次:0:59-1:13 第2次:2:03-2:18

5.birge2

G:--------------0022---------------------------|
D:--------002233-------------------------------|
A:--002233----------002233--7-----7---7-----7--|
E:------------------------0----00---0----00----|

第1次:2:18-2:39

6.outro

Outro
G:-----------------------------|
D:-----------------------------|
A:----3------3------3------3---|
E:--55-5---55-5---55-5-4-55-5--|

第1次:3:51-4:00

1 則留言:

匿名 提到...

intro+verse咁會好D..唔係會斷下斷下
G:-----------------------------------|
D:-----------------------------------|
A:--------------556--7---77---3----5-|
E:-5585588577577---00-000- 011-1-33-3|

張貼留言

如你對POLYGON上的歌譜有任何意歡迎留言或登入Facebook到我地Fan page inbox我地