五月天 星空 [Bass tab]


Arranged By Edan Li

呢首建議setting: 
Version1(柔情板):Amp:Bass:80% Middle:50% Treble:60% Volume:自定  Bass:Pickup:100% Tone:10%
Version1(鐡漢板):Amp:Bass:80% Middle:60% Treble:70% Volume:自定  Bass:Pickup:100% Tone:50% 

呢份就係成份完整既譜,我沒好似之前今分開幾part.原因係呢首歌主要玩「8beat」(係一種基本bass節奏).
要注意既地方有幾個:
1.(重要)嘗試下,每個bar第3下(即Snare Drum果下),可大力少少,令「前進感」強烈一些
2.我一轉chord,bar上面都有個chord.自已諗諗點解要今彈.
3.可以嘗試下加一些fill-in(之前教學有提).
4.有一段係「6 5 3 8....」果段可以練你拍子感
5.中尾段有一段沒鼓,靜左既/可自由揀彈不彈.若彈請細力少少

                                             F  
G||-------|-------|-------|-------|-------|--------------------------|
D||-------|-------|-------|-------|-------|--------------------------|
A||-------|-------|-------|-------|-------|--8--8--8--8--8--8--8--8--|
E||-------|-------|-------|-------|-------|--------------------------|

 
                            D
--------------------------|--------------------------|
--------------------------|--------------------------|
--8--8--8--8--8--8--8--8--|--5--5--5--5--5--5--5--5--|
--------------------------|--------------------------|


                            Bb
--------------------------|--------------------------|
--------------------------|--------------------------|
--5--5--5--5--5--5--5--5--|--1--1--1--1--1--1--1--1--|
--------------------------|--------------------------|

                            F
--------------------------|--------------------------|
--------------------------|--------------------------|
--1--1--1--1--1--1--1--1--|--8--8--8--8--8--8--8--8--|
--------------------------|--------------------------|

 C                          F
--------------------------|--------------------------|
--------------------------|--------------------------|
--3--3--3--3--3--3--3--3--|--8--8--8--8--8--8--8--8--|
--------------------------|--------------------------|


                            D
--------------------------|--------------------------|
--------------------------|--------------------------|
--8--8--8--8--8--8--8--8--|--5--5--5--5--5--5--5--5--|
--------------------------|--------------------------|


                            Bb 
--------------------------|--------------------------|
--------------------------|--------------------------|
--5--5--5--5--5--5--5--5--|--1--1--1--1--1--1--1--1--|
--------------------------|--------------------------|

         
                            F                          C                
--------------------------|--------------------------|-------------------|
--------------------------|--------------------------|-------------------|
--1--1--1--1--1--1--1--1--|--8--8--8--8--8--8--8--8--|--3----------------|
--------------------------|--------------------------|-------------------|


 F  
--------------------------|--------------------------|
--------------------------|--------------------------|
--------------------------|--------------------------|
--1--1--1--1--1--1--1--1--|--1--1--1--1--1--1--1--1--|


  D  
--------------------------|--------------------------|
--------------------------|--------------------------|
--5--5--5--5--5--5--5--5--|--5--5--5--5--5--5--5--5--|
--------------------------|--------------------------|


 Bb                         C                           F   
--------------------------|--------------------------|----------------------|
--------------------------|--------------------------|----------------------|
--1--1--1--1--1--1--1--1--|--3--3--3--3--3--3--3--3--|----------------------|
--------------------------|--------------------------|--1----1----1----1----|


 F                    F                              
-------------------|--------------------------|--------------------------|
-------------------|--------------------------|--------------------------|
-------------------|--8--8--8--8--8--8--8--8--|--8--8--8--8--8--8--8--8--|
--1----------------|--------------------------|--------------------------|


  D   
--------------------------|--------------------------|
--------------------------|--------------------------|
--5--5--5--5--5--5--5--5--|--5--5--5--5--5--5--5--5--|
--------------------------|--------------------------|


  Bb  
--------------------------|--------------------------|
--------------------------|--------------------------|
--1--1--1--1--1--1--1--1--|--1--1--1--1--1--1--1--1--|
--------------------------|--------------------------|


 F                           C                     F
--------------------------|---------------------|--------------------------|
--------------------------|---------------------|--------------------------|
--8--8--8--8--8--8--8--8--|--3--------3----3----|--------------------------|
--------------------------|---------------------|--1--1--1--1--1--1--1--1--|


 F                           D  
--------------------------|--------------------------|
--------------------------|--------------------------|
--------------------------|--5--5--5--5--5--5--5--5--|
--1--1--1--1--1--1--1--1--|--------------------------|

  
 D                          Bb
--------------------------|--------------------------|
--------------------------|--------------------------|
--5--5--5--5--5--5--5--5--|--1--1--1--1--1--1--1--1--|
--------------------------|--------------------------|


 G                          C  
--------------------------|--------------------------|
--------------------------|--------------------------|
--------------------------|--3--3--3--3--3--3--3--3--|
--3--3--3--3--3--3--3--3--|--------------------------|


                             Bb  
--------------------------|--------------------------|
--------------------------|--------------------------|
--3--3--3--3--3--3--3--3--|--------------------------|
--------------------------|--1--1--1--1--1--1--1--1--|


 Bb                          D 
--------------------------|--------------------------|
--------------------------|--------------------------|
--------------------------|--5--5--5--5--5--5--5--5--|
--1--1--1--1--1--1--1--1--|--------------------------|

 
 D                          Bb 
--------------------------|--------------------------|
--------------------------|--------------------------|
--5--5--5--5--5--5--5--5--|--1--1--1--1--1--1--1--1--|
--------------------------|--------------------------|


 C                           F                          A#  A   G      C    
--------------------------|--------------------------|----------------------|
--------------------------|--------------------------|----------------------|
--3--3--3--3--3--3--3--3--|--------------------------|----------------------|
--------------------------|--1--1--1--1--1--1--1--1--|--6---5---3------8----|


  A#                A#     C                  C        F           E  
-------------------------|--------------------------|--------------------------|
--------------------8----|--------------------10----|--------------------------|
-------------------------|--------------------------|--8--8--8--8--7--7--7--7--|
--6-6------6-6-----------|--8-8------8-8------------|--------------------------|


  A           G             A#                 A#     C                  C    
--------------------------|-------------------------|--------------------------|
--------------------------|--------------------8----|--------------------10----|
--5--5--5--5--3--3--3--3--|-------------------------|--------------------------|
--------------------------|--6-6------6-6-----------|--8-8------8-8------------|


  G                          C                                           
--------------------------|---------------------------|--------------------|
--------------------------|---------------------------|--------------------|
--------------------------|--3--3--3--3--3--3--3--3/--|--15----------------|
--3--3--3--3--3--3--3--3--|---------------------------|--------------------|


 F  
--------------------------|--------------------------|
--------------------------|--------------------------|
--8--8--8--8--8--8--8--8--|--8--8--8--8--8--8--8--8--|
--------------------------|--------------------------|


  D
--------------------------|--------------------------|
--------------------------|--------------------------|
--5--5--5--5--5--5--5--5--|--5--5--5--5--5--5--5--5--|
--------------------------|--------------------------|


  Bb                    
--------------------------|-----------------------|-----------|
--------------------------|-----------------------|-----------|
--1--1--1--1--1--1--1--1--|--1--1--1--1--L--------|-----------|
--------------------------|-----------------------|-----------|


  F 
--------------------------|--------------------------|
--------------------------|--------------------------|
--------------------------|--------------------------|
--1--1--1--1--1--1--1--1--|--1--1--1--1--1--1--1--1--|


 D 
--------------------------|--------------------------|
--------------------------|--------------------------|
--5--5--5--5--5--5--5--5--|--5--5--5--5--5--5--5--5--|
--------------------------|--------------------------|


  Bb                         G 
--------------------------|--------------------------|
--------------------------|--------------------------|
--1--1--1--1--1--1--1--1--|--------------------------|
--------------------------|--3--3--3--3--3--3--3--3--|


 C  
--------------------------|--------------------------|
--------------------------|--------------------------|
--3--3--3--3--3--3--3--3--|--3--3--3--3--3--3--3--3--|
--------------------------|--------------------------|

 
 D                           C
--------------------------|--------------------------|
--------------------------|--------------------------|
--5--5--5--5--5--5--5--5--|--3--3--3--3--3--3--3--3--|
--------------------------|--------------------------|


  Bb                         F   
--------------------------|--------------------------|
--------------------------|--------------------------|
--1--1--1--1--1--1--1--1--|--------------------------|
--------------------------|--1--1--1--1--1--1--1--1--|


  Bb                         C  
--------------------------|--------------------------|
--------------------------|--------------------------|
--1--1--1--1--1--1--1--1--|--3--3--3--3--3--3--3--3--|
--------------------------|--------------------------|


 Bb                          A#   A    G    F      Bb
--------------------------|----------------------|--------------------------|
--------------------------|----------------------|--------------------------|
--------------------------|----------------------|--1--1--1--1--1--1--1--1--|
--1--1--1--1--1--1--1--1--|--6----5----3----1----|--------------------------|


  C                          Bb  
--------------------------|--------------------------|
--------------------------|--------------------------|
--3--3--3--3--3--3--3--3--|--1--1--1--1--1--1--1--1--|
--------------------------|--------------------------|


  A                          G  
--------------------------|--------------------------|
--------------------------|--------------------------|
--------------------------|--------------------------|
--5--5--5--5--5--5--5--5--|--3--3--3--3--3--3--3--3--|


 C                           Bb  
--------------------------|--------------------------|
--------------------------|--------------------------|
--3--3--3--3--3--3--3--3--|--1--1--1--1--1--1--1--1--|
--------------------------|--------------------------|


  A                          C 
--------------------------|--------------------------|
--------------------------|--------------------------|
--------------------------|--------------------------|
--5--5--5--5--5--5--5--5--|--3--3--3--3--3--3--3--3--|


  C                         F                
--------------------------|-------------------||
--------------------------|-------------------||
--3--3--3--3--3--3--3--3--|-------------------||
--------------------------|--1----------------||




沒有留言:

張貼留言

如你對POLYGON上的歌譜有任何意歡迎留言或登入Facebook到我地Fan page inbox我地