梁靜茹 暖暖 [結他chord譜]



曲:人工衛星     詞: 李焯雄     Key:  B      Arranged By Wing Wing子
 
Play C

INTRO
C                               Am
---------0-------0--------3--0-|---------0-------------0-
-1-3-3-------3---------3-------|1-1---------3---1---3----
0------0---0---0----0----------|----0--2------2----------
-------------------------------|-------------------------
-----3-------------------------|0------------------------
-------------------------------|-------------------------
C Am                    C
---------0-------0--------3--0-|---------0---------------
-1-3-3-------3---------3-------|1-1---------3--1---3--1--
0------0---0---0----0----------|----0--2------2----------
-------------------------------|-------------------------
-----3-------------------------|0------------------------
-------------------------------|-------------------------
  
    C    G    Am   Em    F  G   C
都可以 ()便的 ()說的 ()都願意() 小火() 擺()的旋()
都可以 ()便的 ()說的 ()都願意() 回憶() 滿()的旋()
    C    G    Am   Em    F   G  C
都可以 ()真的 ()說的 ()都會相() 因為() 完()信任()
都可以    ()真的    ()說的    ()都會相()    因為()    ()信任(

  F   G   C    Am   F   G     C
細膩()() 毛毯()的厚重() 曬過()陽 ()悉的安全()
細膩()() 你手()的厚實() 什麼()難 ()覺得有希()
   F   G   C     Am    F   G    C
分享()湯 ()們兩支()匙一個() 左心() 暖()的好飽(滿)
我哼()歌 ()自然的()接下一() 我知() 暖()的就在胸()

    C    G    Am   Em    
我想說 ()實你很() 你自()卻不知() 
 F   C    F   G
()心的()我好 ()要求()
 C   G    Am  Em          
()一個() 希望()過更() 
 F     C    F    G  C
()從心裡 ()暖的 ()比自己()()

    D    A    Bm   F#m 
我想說 ()實你很() 你自()卻不知() 
 G   D    G   A
()來都()低調 ()信心()
 D   A    Bm  F#m  
()一個() 希望()過更()
G     D    G    A  D
()從心裡 ()暖的 ()比自己()()

   D A    Bm    
我想() ()實你很()  
  F#m G   D    G   A
你不知() ()心的()我好 ()要求()
 D   A    Bm F#m G     D         
()一個() 希望()過更() ()從心裡 ()暖的 
  G    A  D
()比自己()()
 G    A   D
()也希望  ()()


ENDING

C Am                    C
---------0-------0--------3--0-|---------0---------------
-1-3-3-------3---------3-------|1-1---------3---1---3--1-
0------0---0---0----0----------|----0--2------2----------
-------------------------------|-----------------------2-
-----3-------------------------|0----------------------3-
-------------------------------|-------------------------

沒有留言:

張貼留言

如你對POLYGON上的歌譜有任何意歡迎留言或登入Facebook到我地Fan page inbox我地