Jason Mraz Mr. curiosity [結他chord + Intro譜]



曲詞:Jason mraz            Key:Bb           4/4              Arranged By Roddy Yuen
Capo 3 > Play G
 
 G                       Bm                    Dm                    Am
é-----------3---2--|------------------|-1-0------------0-|----------------|
B-----0------------|-------4--3-------|-----3------------|---3-1----------|
G-0-2---0----------|-----4----4-------|-------2--2-------|-------2--------|
D---------0---0----|---4--------------|-0----------------|----------------|
A------------------|-2----------------|------------------|-0----------2---|
E-3----------------|------------------|------------------|----------------|

 Cm                     G                     Am                   D
|-3----------------|-3---------------|-----------3---2-|-------10--------|
|---4-3------------|---3-------------|-----------------|-----3-10--------|
|-------5----------|-----5-4---------|-2-4-5-----------|---2---11--------|
|------------5-----|-----------------|-------2-2---2---|-0---------------|
|-3----------------|-----------------|-0---------------|-----------------|
|------------------|-3---------------|-----------------|-----------------|


G              Bm
Hey Mr. Curiosity
                               Dm                     
Is it true what they've been saying about you?
        Am
Are you killing me?
 
           Cm
You took care of the cat already
        G
And for those who think it's heavy
          Am                  D
Is it the truth or is it only gossip?
 
G                      Bm
Call it mystery or anything
                      Dm                            Am
Just as long as you'd call me, I'll sent the message on
        
Did you get it when I left it?
          Cm
See, this catastrophic event
          G
It wasn't meant to mean no harm
        Am                                D
But to think there's nothing wrong is a problem
 
C                  G                          
_  I'm looking for love this time
Bm7                                     Em   D
Sounding hopeful but it's making me cry
C              G
     Love is a mystery
    B7                       
Mr. Curious, come back to me
 
G               Bm
   Mr. Waiting, ever patient
                           Dm  
Can't you see that I'm the same the way you left me?
     Am
In a hurry to spell check me
        Cm
And I'm underlined already
        G
In envy green, in pencil red
            Am                 
And I've forgotten what you've said
              D                          G            
Will you stop working for the dead and return?
 
 
Mr. Curious
        Bm
Well, I need some inspiration
 
        Dm                             Am     
It's my birthday and I cannot find no cause for celebration

     Cm
The scenario is grave
            G
But I'll be braver when you save me
           Am                   D      
From this situation, laden with hearsay
 
C                   G
    I'm looking for love this time
         Bm7                           Em    D
Sounding hopeful but it's making me cry
C             G 
    Love is a mystery
    B7                                        
Mr. Curiosity be Mr. Please do come and find me
 
Bridge
|Cm  |G  |Cm  |G  |
 
Opera
|G   |Bm   |Dm  |Am   |Cm  |G   |Am   |D   |  x2
 
 
C              G
   I'm looking for love this time
         Bm7                           Em
Sounding hopeful but it's making me cry
         D           C
Trying not to ask why
                 G
This love is a mystery
    B7                                        
Mr. Curiosity be Mr. Please do come and find me
        C                                       G     
Love is blinding when your timing's never right
 
           Bm7                 
Oh, who am I to beg for difference
        Em                     
Finding love in just an instant
              Cm7
Well, I don't mind
           G
At least I tried
        B7
Well, I tried
       D   G
I tried


原譜

沒有留言:

張貼留言

如你對POLYGON上的歌譜有任何意歡迎留言或登入Facebook到我地Fan page inbox我地