何韻詩 如無意外 [結他chord譜]



曲: Hocc@goomusic     詞: 黃偉文     Key: G#     Arranged By Nicki Ng

Capo 1, Play G

intro:
           G      D/F#       G/E    D         C      G/B        Am          D
E|--------|----3--2---------|----3--2--------|----0------------|----------------|
B|--0-1-3-|3--------3--0-1--|3--------3----0-|1------3---------|3--3--1--0------|
G|--------|--0--------------|--0---------2---|--0------0--2--0-|------------2---|
D|--------|-----------------|-------0--------|-----------------|------------0---|
A|--------|-----------------|----------------|3------2---------|0---------------|
E|--------|3------2---------|0---------------|-----------------|----------------|


G     D/F#      Em    Em/D    C        G/B       Am       Dsus4
( )航程(尚)有幾多(千)百里( )  雲層(上)平靜得(出)奇 無聊(令)人回想(起) 
G      D/F#     Em     Em/D       C         D          G  D
( )其時其(實)我不想(失)去了你( )   然而(當)時我未(能)甘於只擁有(你) ( ) 
G            D/F#      Em        Em/D    C           G/B
( )若是沒有這(意)外 也許(經)已快樂(地) 重回(平)淡家中等(你) 
     Am           D        G        D/F#      Em     Em/D       C
計劃(明)年的婚禮(照)舊或延(期) 其實(本)應這套(戲) 能幸(福)的演到(尾) 
    G/B    Am           D        
但我(好)奇 (想)試試企頒(獎)台被讚 

bridge:
  G        D/F#       G/E    D         C      G/B        Am       D
E|------3--2---------|----3--2--------|----0------------|-----0-2-3--2--0-2---|
B|----0------3--0-1--|3--------3----0-|1------3---------|3--3-----------------|
G|--0----------------|--0---------2---|--0------0--2--0-|---------0-----------|
D|-------------------|-------0--------|-----------------|---------------------|
A|-------------------|----------------|3------2---------|0--------------------|
E|3--------2---------|0---------------|-----------------|---------------------|
  美

G        D/F# Em      Em/D  C       G/B      Am      Dsus4
 原來就算終於 打了勝仗  無人在前面的機場 迎來閘門來分享 
G      D/F#    Em  Em/D     C        Dsus4       G  G/C /B
 明明能共你熱戀中收場   然而當時 有別人專機催促我上 
C         D         Em Em D  C        D       Em Em/D
搭上了客機竟然從未降落 高 空 裡 無辦法可以回去了 
        Am Am/A#    C  C/B Am Am    
你似是風景 縮到最細 消 失  了     
C         D7    Dsus4 
無奈在這刻你才重要 


G         D/F#     Em      Em/D    C         G/B 
若是沒有這意外 也許經已快樂地  重回平淡家中等你 
    Am        Dsus4   G      D/F#    Em     Em/D    C
聽著懷中的心跳讚造物神奇 其實本應這套戲 能幸福的演到尾 
    G/B  Am        Dsus4 
但我好奇 想到處看到處飛 
G         D/F#    Em      Em/D     C         G/B 
若是沒有這意外也許經已快樂地   重回平淡家中等你 
    Am        Dsus4   G    
決定孩子應該叫約翰或瑪姬
    D/F#    Em     Em    Em/D  Em/C#
還是當初揀了你 如沒意外到分手結尾
  Dsus4    
我退出才合  

ending:       
  G           D/F#        G/E    D         C            G/B       Asus4     D  G  
E|-----------------------|---------------|------0---0--0----0----|------------|3|
B|------0---0-------0---0|---------------|--------3------3----3--|3----1-0----|0|
G|----0---2-------0---2--|2----0--2---2/4|----0-----------------0|2---------2-|0|
D|--0-----------0--------|---0------0----|--2--------------------|----------0-|0|
B|-----------------------|---------------|3------------2---------|0-----------|2|
E|3-----------2----------|0-------0------|-----------------------|------------|3|
  理

沒有留言:

張貼留言

如你對POLYGON上的歌譜有任何意歡迎留言或登入Facebook到我地Fan page inbox我地